Friday, September 22, 2017

Lirik dan Kunci Gitar Bondan Prakoso & Fade 2 Black - Not With Me

Lirik, Kunci gitar, Chords Gitar, Kord Gitar Bondan Prakoso & Fade 2 Black - Not With Me :

Intro: C F Am G F

C Am F
I'm walking up from my summers dreams again
Am G F
try to thinking if you're alright
C Am F
then I'm shattered by the shadows of your eyes
Am G F
knowing you're still here by my side

C F
I can see you if you're not with me
Am G F
I can say to my self if you were ok
C F
I can feel you if you're not with me
Am G F
I can reach you my self, you show me the way

C Am F
life was never be so easy as it seems
Am G F
'till you come and bring your love inside
C Am F
no matter space and distance make it look so far
Am G F
still I know you're still here by my side

C F
I can see you if you're not with me
Am G F
I can say to my self if you were ok
C F
I can feel you if you're not with me
Am G F
I can reach you my self, you show me the way

Dm F
you've made me so alive
Am
you give the best for me
G
love and fantasy
Dm F
yeah and i never feel so lonely
Am
coz you're always here with me
G
yeah always here with me

C F
I can see you if you're not with me
Am G F
I can say to my self if you were ok
C F
I can feel you if you're not with me
Am G F
I can reach you my self, you show me the way
F
you show me the way you show me the way

C Am F
I'm walking up from my summers dreams again
C Am F
try to thinking if you're alright
C Am F
then I'm shattered by the shadows of your eyes
C Am F
knowing you're still here by my side

Guitar Tabs and Video Creeping Death [Solo] - Metallica

Lyric, Tab , Chords Guitar, Kord Gitar Creeping Death [Solo] - Metallica :

e|----------------------------------------------------------19h20h22--|
b|-12-13-15-17p15-13-14-15-17-19p17-15-15-17-19-17-19-20-22-----------|
g|--------------------------------------------------------------------|
d|--------------------------------------------------------------------|
a|--------------------------------------------------------------------|
E|--------------------------------------------------------------------|

e|-22fb-22fb--22fb-22fb-r-22fb-r-22--19--|
b|---------------------------------------|
g|---------------------------------------|
d|---------------------------------------|
a|---------------------------------------|
E|---------------------------------------|

e|-22-20-19\17-21-19-17\15-19-17-15\14-17-15-14\12-15p14-------------------|
b|-------------------------------------------------------17p15-15p14p12h15-|
g|-------------------------------------------------------------------------|
d|-------------------------------------------------------------------------|
a|-------------------------------------------------------------------------|
E|-------------------------------------------------------------------------|

e|-------------------------------------------------------------------------|
b|-12\10-10--------10--15---15--12-----------------------------------------|
g|----------12fb-r-----14fb-16--12-----12-14--14fb-r-14-12b----12-14fb-----|
d|----------------------------------14----------------------14-------------|
a|-------------------------------------------------------------------------|
E|-------------------------------------------------------------------------|

e|---------------------------------------------------------------12-15p12--|
b|-12-15p12-15p12------12-15p12-15p12------12-15p12-15p12-15fb-r-----------|
g|----------------14fb----------------14fb---------------------------------|
d|-------------------------------------------------------------------------|
a|-------------------------------------------------------------------------|
E|-------------------------------------------------------------------------|

e|----12-----------------------14--17p15-14-15p14----14-------12-------------|
b|-15----15-12-15p12----12------------------------17----17p15----15p14-15p14-|
g|-------------------14----14------------------------------------------------|
d|---------------------------------------------------------------------------|
a|---------------------------------------------------------------------------|
E|---------------------------------------------------------------------------|

e|------------------------------17--20/22~~-22~~~--|
b|-12-14-12------------------18--------------------|
g|----------14-12----12-14/19----------------------|
d|----------------14-------------------------------|
a|-------------------------------------------------|
E|-------------------------------------------------|

sweep picking.......................................................................|

e|-------12-17p12-------------12-17p12----------------12-17p12-------------12-12p17-|
b|----13----------13-------13----------13----------13----------13-------13----------|
g|-14----------------14-14----------------14-14-14----------------14-14-------------|
d|----------------------------------------------------------------------------------|
a|----------------------------------------------------------------------------------|
E|----------------------------------------------------------------------------------|

e|----12h15p12----------------------------------------------------------------------|
b|-13----------15---12----12--15p12----------------15---15---15---------------------|
g|---------------------14------------14-12----12---14fb-14fb-14fb-14fb-r------------|
d|-----------------------------------------14---------------------------------------|
a|----------------------------------------------------------------------------------|
E|----------------------------------------------------------------------------------|

e|----------------------------------------------------------------------------------|
b|----------------------------------------------------------------------------------|
g|----------------------------------------------------------------------------------|
d|----------------------------------------------------------------------------------|
a|-7--7-7--8-8-8-8--9-9-9-9-9-9-9-9-10--9-10-9-10-9-11-10-12-11-12-11-12-11-13-12-14|
E|----------------------------------------------------------------------------------|

e|----------------------------------------------------------------------------------|
b|----------------------------------------------------------------------------------|
g|----------------------------------------------------------------------------------|
d|-------------------------------------------11-11-12-11-12-11-12-12-12-12-13-12-13-|
a|-13-14-13-14-14-15-15-14-14-15-14-14-14-15----------------------------------------|
E|----------------------------------------------------------------------------------|

e|--------------------------------------------------------14--17p14-----------------|
b|--------------------------------------14-17-14----14-17-----------14h17-14----14--|
g|----------------12/14--17-14-13-14-16----------16--------------------------16-----|
d|-15-15---15-15--------------------------------------------------------------------|
a|----------------------------------------------------------------------------------|
E|----------------------------------------------------------------------------------|

e|----------------------------------------------------------------------------------|
b|-17p14----------------------------------------------------------------------------|
g|-------16-14----14-16p14----14----------------------------------------------------|
d|-------------16----------16-----16p14-16p14----14---------------------------------|
a|--------------------------------------------16----16-14-16p14-12-14p12----12-14---|
E|-----------------------------------------------------------------------14---------|

e|----------------------------------------------------------------------------------|
b|----------------------------------------------------------------------------------|
g|--------------------------11--12--14---------12--11h12p11---------------11---12-14|
d|--12--12---14~~~~~~~~~~14----------------------------------12--------14-----------|
a|----------------------------------------------------------------------------------|
E|----------------------------------------------------------------------------------|

e|-----------------12-----12/14--15--17-------------15---14----------17tp-----------|
b|--12---13---15-----------------------------------------------17-------------------|
g|----------------------------------------------------------------------------------|
d|----------------------------------------------------------------------------------|
a|----------------------------------------------------------------------------------|
E|----------------------------------------------------------------------------------|

e|--17--19----20-----19---17-----15---14h15--15p14p12-15p14p12-15p14p12-15p14p12----|
b|----------------------------------------------------------------------------------|
g|----------------------------------------------------------------------------------|
d|----------------------------------------------------------------------------------|
a|----------------------------------------------------------------------------------|
E|----------------------------------------------------------------------------------|

e|-15p14p12-15p14p12-15p14p12-15-14/12-17p15p14-17p15p14-17p15p14-17p15p14-17p15p14-|
b|----------------------------------------------------------------------------------|
g|----------------------------------------------------------------------------------|
d|----------------------------------------------------------------------------------|
a|----------------------------------------------------------------------------------|
E|----------------------------------------------------------------------------------|

e|-17p15p14-17p15p14-17-15-15-19p17p15-19p17p15-19p17p15-19-15-16-20p19p17-20p19p17-|
b|----------------------------------------------------------------------------------|
g|----------------------------------------------------------------------------------|
d|----------------------------------------------------------------------------------|
a|----------------------------------------------------------------------------------|
E|----------------------------------------------------------------------------------|

e|-20p19p17-20p19p17--22fb----22fb----22fb---22fb------22fb-22fb--22fb~~~~~-|
b|--------------------------------------------------------------------------|
g|--------------------------------------------------------------------------|
d|--------------------------------------------------------------------------|
a|--------------------------------------------------------------------------|
E|--------------------------------------------------------------------------|

d|-----------------|
b|-----------------| well thats the solo long and takes a long time to
g|-----------------| remember.
d|-14\-------------|
a|-14\-------------|
E|-12\-------------|


and some of the lead fills:

the one after the bridge is :


pm.........|
e|--------------------------------------------|
b|---------------------------------------17---|
g|------------------------------------16------|
d|----------12-14-15-17-15-14/12----15--------|
a|-12-13-15----------------------14-----------|
E|--------------------------------------------|

the long one near the end is;
two guitars
E|--------------------------------------------------------|
b|--15fb-r---13--12---------------12fb-r----------13------|
g|.-14fb-r---12--11---------------11fb-r-----14---12-----.|
d|.------------------------------------------14----------.|
a|--------------------------------------------------------|
E|--------------------------------------------------------|

after you do that a few times you play somthing in the background
which gous like this

e|------------------------------------------------------------------------|
b|-20p17p0-20p17p0-20p17p0-20p17p0-19p16p0-19p16p0-19p16p0-19p16p0--------|
g|.----------------------------------------------------------------------.|
d|.----------------------------------------------------------------------.|
a|------------------------------------------------------------------------|
E|------------------------------------------------------------------------|


Guitar Tabs and Video November Rain Solos - Guns N Roses

Lirik, Kunci gitar, Chords Gitar, Kord Gitar

Guitar solo 1: 
E|-----------8-----------------------------8------------8~~~~~~-------|
B|-b8---r8b----8---r(8)p6--8brbr----r8b------r8--5br~~----------5brbr-|
G|--------------------------------------------------------------------|
D|--------------------------------------------------------------------|
A|--------------------------------------------------------------------|
E|--------------------------------------------------------------------|

E|------------------------------------------------------------------|
B|-5~~----------8------------------------8--------------------------|
G|-----7p5--7/9---9\7--5---b8-------r8b----8--r(8)p6--8brb-----r8b--|
D|------------------------------------------------------------------|
A|------------------------------------------------------------------|
E|------------------------------------------------------------------|

E|-8-8br---10b(hold)-8h10p8----8-------13p12-----13p12----13b---13~~~~--|
B|--------------------------10---11b----------13-------13---------------|
G|----------------------------------------------------------------------|
D|----------------------------------------------------------------------|
A|----------------------------------------------------------------------|
E|----------------------------------------------------------------------|

E|----12--13-12h13p12---------12-13br-13-12-12b-12~~~-20--(20)~~~-|
B|-15-----------------15~~-15-------------------------------------|
G|----------------------------------------------------------------|
D|----------------------------------------------------------------|
A|----------------------------------------------------------------|
E|----------------------------------------------------------------|

E|-19-19--19\17--17\15--15\13--13--13\12--12--12h13p12-----12h13~~~|
B|------------------------------------------------------15---------|
G|-----------------------------------------------------------------|
D|-----------------------------------------------------------------|
A|-----------------------------------------------------------------|
E|-----------------------------------------------------------------|

E|-12-13-12h13p12--------12---------------------------------------------|
B|----------------15p13-----13---15h17p15-15-12h13-12h13p12--------12---|
G|-----------------------------------------------------------14p12------|
D|----------------------------------------------------------------------|
A|----------------------------------------------------------------------|
E|----------------------------------------------------------------------|

E|-------------------------------------------------------------|
B|----10-----------------------------13~~~~--------------13~~~-|
G|-12----10--12--10--9~~~~--12p10\9-----------10h12p10\9-------|
D|-------------------------------------------------------------|
A|-------------------------------------------------------------|
E|-------------------------------------------------------------|

E|--------------------------15--------------------|
B|-------------15b-------------r15---13-----(13)b-|
G|-10h12p10\9-------------------------------------|
D|------------------------------------------------|
A|------------------------------------------------|
E|------------------------------------------------| (end of solo 1)

E|----------------------------------------------------------|
B|-13-----------(13)b-------------------6-5-----------------|
G|----------------------------5h7p5----------5---------5h7--|
D|-----------------------------------7----------7-----------|
A|----------------------------------------------------------|
E|----------------------------------------------------------|
need some time on my own sometimes i need sometime all alone

G F G
E|------------------------------------------------------------------------|
B|------6b-------6p5----6---5---------------------------------------------|
G|----------------------------5-------------5h7-------------5h7p5---------|
D|-7-5---------------------------7----------------------7----------7------|
A|------------------------------------------------------------------------|
E|------------------------------------------------------------------------|

ooh, everybody needs sometime on their own ooh, don't you know you
F G
E|-----------------------------------------------------------|
B|-6--5------------------------------------------------------|
G|------5---------------------7--9--10--12--14--16--17--19---|
D|--------7--------------------------------------------------|
A|-----------------------------------------------------------|
E|-----------------------------------------------------------|
need sometime all alone

Guitar solo 2:
E|--------------------------------------20---------------20---------19b-|
B|-----------------------18~~~~~~-20b------r20-----(20)b----18-17~------|
G|-7-9-10-12-14-16-17-19------------------------------------------------|
D|----------------------------------------------------------------------|
A|----------------------------------------------------------------------|
E|----------------------------------------------------------------------|

w/Fill 2.
E|----------------------17--------------------------------------------------|
B|-17b-rb-r----17-18-20----18--20-17-18-20--17br-17-------------------------|
G|----------19--------------------------------------19brp17--19p17-----17---|
D|------------------------------------------------------------------19------|
A|--------------------------------------------------------------------------|
E|--------------------------------------------------------------------------|

E|-----------------------------------------------------------------------|
B|-20---------------20----------------20b--20--18h20p18p17--18-17h18p17--|
G|----17-17------17----17-17-17----17------------------------------------|
D|-----------19-----------------19---------------------------------------|
A|-----------------------------------------------------------------------|
E|-----------------------------------------------------------------------|

E|------------------------------------|
B|-----17------20---------------------|
G|-19-----19b------19---17~~~~--------|
D|------------------------------------|
A|------------------------------------|
E|------------------------------------| (end of solo 2)


Lirik Kunci Gitar dan Video Clip Gangstarasta - Hilang

Lirik, Kunci gitar, Chords Gitar, Kord Gitar Gangstarasta - Hilang :

Intro: G Am G Am
G Am G Am

G
Hey, lewati jalan kehidupan
Am
Yang dulu kita rasakan
C
Dan terus kita rasakan
G
Dan kini semua hilang tak berarti
Am
Bagai angin yang berhembus
Am
Rasa itu terbawa pergi
G
Kita pernah coba
G
Menggapai semua mimpI
Am
Jalani bersama
Am
Satukan harapan

C D
Ohh.. kini semua tak lagi nyata
C D
Jalan kita berbeda
C D
Hasrat kita tak lagi sama
C D
Entah sampai Kapan lagi, ku rasa semua ini

Reff:
G Bm
Semua hilang.., semua hilang..
Am
Harapkan kau kembali
D
Mungkinkah ini terjadi
G Bm
Semua hilang.., dan semua hilang..
Am
Rasa itu t’lah pergi
D G
Dapatkahku rasa hadirmu dihati..

Int: G Bm Am D
G Bm Am D


G Bm
Semua hilang.., semua hilang..
Am
Harapkan kau kembali
D
Mungkinkah ini terjadi
G Bm
Semua hilang.., dan semua hilang..
Am
Rasa itu t’lah pergi
D G
Dapatkahku rasa hadirmu dihati..
Bm
(Semua hilang..) Ho ho ho..
Am
(Semua hilang ..) harapkan kau kembali
D
Mungkinkah ini terjadi

G Bm
Semua hilang.., dan semua hilang..
Am
Rasa itu t’lah pergi
D G
Dapatkahku rasa hadirmu dihati..
Bm
(Semua hilang..) Ho ho ho..
Am
(Semua hilang ..) harapkan kau kembali
D
Mungkinkah ini terjadi
G Bm
Semua hilang.., semua hilang..
Am
Harapkan kau kembali
D
Mungkinkah ini terjadi
G
Semua hilang..


Thursday, September 21, 2017

Lirik dan Kunci Gitar Ridho Roma - Dawai Asmara

Lirik, Kunci gitar, Chords Gitar, Kord Gitar Ridho Roma - Dawai Asmara :

Intro:  F Dm Am C F 2x
A# C F Dm A# C F
D# A# F

F Dm
Dawai asmara bergetar syahdu
A# C F D# A#
Mengalunkan senandung rindu
F Dm
Belaian mesra menggugah jiwa
A# C Am
Tak terlukiskan bahagia

Gm D#
Hanyut dalam gelora cinta
C Am
Hanyut di dalam suka cita
Gm D#
Tenggelam dalam madu cinta
C Am
Tenggelam di dalam bahagia

F Dm
Dawai asmara bergetar syahdu
A# C F D# A#
Mengalunkan senandung rindu
F Dm
Belaian mesra menggugah jiwa
A# C Am A# F
Tak terlukiskan bahagia

int: F C Dm C Gm
Gm C F
D# F D# F

F Am Gm C F
Syair para pujangga mengabadikan cinta
F Am Gm C F
Hati para dewasa pasti tersentuh cinta

D# A#
terkadang lembut dan manja
C# F
Cinta membuat terlena
D# A#
Ada kala bergelora
C# F
Bak debur ombak samudera

int: D# A# F

F Dm
Pesona cinta membuai jiwa
A# C F D# A#
Menjanjikan sejuta indah
F Dm
Terbit selera tergugah jiwa
A# C Am
Tuk menyemaikan benih cinta

Gm D#
Semoga putik kan berbunga
C Am
Semoga panggil kan berjawab
Gm D#
Ku ingin hidup dengan cinta
C Am
Ku ingin selalu bersamanya

F Dm
Pesona cinta membuai jiwa
A# C F D# A#
Menjanjikan sejuta indah
F Dm
Terbit selera tergugah jiwa
A# C Am A# F
Tuk menyemaikan benih cinta

Lirik dan Kunci Gitar Agnes Monica - Karena Ku Sanggup

Lirik, Kunci gitar, Chords Gitar, Kord Gitar Agnes Monica - Karena Ku Sanggup :


D# D#m A#

A# F
biar aku sentuhmu
Gm Dm
berikanku rasa itu
D# D#m A#
pelukmu yang dulu pernah buatku

A# F
ku tak bisa paksamu
Gm Dm
tuk tinggal di sisiku
D# F
walau kau yang selalu sakiti aku
Dm Gm
dengan perbuatanmu
Cm
namun sudah kau pergilah
D
jangan kau sesali

G C
karena ku sanggup walau ku tak mau
Am D
berdiri sendiri tanpamu
G C
ku mau kau tak usah ragu
Am D G
tinggalkan aku kalau memang harus begitu

A# F
tak yakin ku kan mampu
Gm Dm
hapus rasa sakitku
D# F
ku selalu perjuangkan
Dm Gm
cinta kita namun apa salahku
Cm D#m D
hingga ku tak layak dapatkan kesungguhanmu

G C
karena ku sanggup walau ku tak mau
Am D
berdiri sendiri tanpamu
G C
ku mau kau tak usah ragu
Am D G
tinggalkan aku kalau memang harus begitu

Solo: Em C#m C
Am-Bm-D D#

G# C#
karena ku sanggup walau ku tak mau
A#m F# D#
berdiri sendiri tanpamu
G# C#
ku mau kau tak usah ragu
A#m D# Fm
tinggalkan aku kalau memang harus begitu

D# C#
tak perlu kau buat aku mengerti
C#m G#
tersenyumlah karena ku sanggup

Wednesday, September 20, 2017

Lirik dan Kunci Gitar Glenn Fredly - How Can I

Lirik, Kunci gitar, Chords Gitar, Kord Gitar Fredly - How Can I :


E G#7 C#m – Bm
How can I love you my lady

E A G#m F#7 – B
everyday and everynight

E G#7 C#m Bm
How can I love you day by day

E A F#m B
through the day and through the night

E G#7 C#m – Bm
How can I praise you my baby

E A G#m F#7 – B
through the good, through the bad

E G#7 C#m – Bm
How can I praise you sweet lady

E A F#m B
through the joy and through the sad

C#m C#m(maj7)
Somebody tell me that I am in love,

C#m7 F#
that I love you girl, and it’s just you girl

A G#m F#m B
I need your love for me

E G#7 C#m
I wanna love you and I hold you so tight

Bm A G#m F#7 - B
and I love you always everyday and every hour

E G#7 C#m
I wanna love you and I wont let you go

Bm A - G#m - F#m B
I need your love..................baby girl

Wednesday, September 13, 2017

Lirik dan Kunci Gitar Bruno Mars - Just The Way You Are

Lirik, Kunci gitar, Chords Gitar, Kord Gitar Bruno Mars - Just The Way You Are :

Intro: D Bm G D

D
Oh her eyes, her eyes, make the stars look like they're not shining
Bm
Her hair, her hair, falls perfectly without her trying
G D
She's so beautiful, and I tell her every day

D
Yeah, I know, I know when I compliment her she won't believe me
Bm
And it's so, it's so sad to think she don't see what I see
G D
But every time she asks me do I look okay, I say

Chorus:
D Bm
When I see your face, there's not a thing that I would change
G D
Cause you're amazing, just the way you are
D Bm
And when you smile, the whole world stops and stares for awhile
G D
Cause girl you're amazing, just the way you are

D
Her lips, her lips, I could kiss them all day if she'd let me
Bm
Her laugh, her laugh, she hates but I think it's so sexy
G D
She's so beautiful, and I tell her every day

D
Oh you know, you know, you know I'd never ask you to change
Bm
If perfect is what you're searching for, then just stay the same
G D
So, don't even bother asking if you look okay, you know I say


Chorus

D Bm
The way you are, the way you are
G D
Girl you're amazing, just the way you are


Chorus

Lirik dan Kunci Gitar Vagetoz - Kecewa

Lirik, Kunci gitar, Chords Gitar, Kord Gitar Vagetoz - Kecewa :

Intro : D Em Bm A 2X

D Em Bm A
Pernahkah kau pikir tentang perasaanku saat ini
D Em Bm A
Tidakkah kau lihat betapa aku kecewa olehmu
D Em Bm A
Tak cukupkah kau terus sakiti hatiku
D Em Bm A
Terus semakin tak mengerti apa maumu

D Em Bm A
Hanya cinta yang ku punya, tulus, suci pada dirimu
D Em Bm A
akan kucoba pertahankan meski kau telah robek hatiku
D Em Bm A
Tak cukupkahku bersabar selama ini
D Em Bm A
Haruskah aku mengakhiri semua ini

Reff:
G F#m
Mengapa dirimu terus saja membohongiku
Em
Apa salahku kasih
A D
Hingga kau tega lakukan semua itu
G F#m
Aku pun tak sanggup bila harus terus begini
Em
Tinggalkanlah aku
A D
Jika memang kau sudah tak cinta lagi


Interlude : Em F#m G A


Balik ke Reff 2X


Code : Em Bm A
D Em Bm A

Friday, September 8, 2017

Lirik dan Kunci Gitar Superman Is Dead - Strong Enough

Lirik, Kunci gitar, Chords Gitar, Kord Gitar Superman Is Dead - Strong Enough:

Fig1
e|-----------------------------------|
B|-----------------------------------|
D|---4-5-4---4-5-4---4-5-4---4-7-5---|
G|-7-------5-------3-------2-------7-|
A|-----------------------------------|
E|-----------------------------------|

Fig2
e|-----|
B|-----|
G|-----|
D|-----|
A|---7-|
E|-5---|

Fig3
e|---------------------------------------------------------------|
B|---------------------------------------------------------------|
D|-------5--------5--------5------------5--------5--------5-7~5~-|
G|-7-5-7---7--5-7---7--7-5---7-5--7-5-7---7--5-7---7--7-5--------|
A|---------------------------------------------------------------|
E|---------------------------------------------------------------|

e|---------------------------------------------------------------|
B|---------------------------------------------------------------|
D|-------5--------5--------5------------5--------5--------5------|
G|-7-5-7---7--5-7---7--7-5---7-5--7-5-7---7--5-7---7--7-5---7-5--|
A|---------------------------------------------------------------|
E|---------------------------------------------------------------|


Fig1 4x
A5 G5 F5 E5

A5
I spent all my tragic days but it made me more confused
F5
What was really going on? Every step I did so blur
Fig2
A5
Many things I cannot leave pull me to an empty space
F5
I reach out beyond the line, hope to find another life

**
D5 C5 G5 A5
Good times and bad times I walk through, but at the end I will fall
D5 C5 E5 F5 G5
All of my sympathy disappears, it’s turning useless

Reff:
A5 C5
OOOOO
F5 E5
The pain I try to live without
A5 C5 F5 E5
Stealing back memories that were mine
A5 C5
OOOOO
F5 E5
The tension makes me runaway
D5 E5
I feel less-powered and good friends are gone

A5
Friends are easy come and go, think my life's is misery
F5
Hypocrite society, perfect people is not real
A5
You will never count at all, what I give and what I care
F5
And you'll always got the times, you got sick when I worked wrong

Back to
**

Fig3
A5 C5 F5 G5

D5 C5 D5 C5 D5 C5
E5 D5 E5 D5 E5 D5
F5 E5 F5 E5 F5 E5 G5 F5 E5

Lyric and Tab Guitar Linkin Park - Wretches And Kings

Lirik, Kunci gitar, Chords Gitar, Kord Gitar Linkin Park - Wretches And Kings :

                              x3  let ring----------------------
||----------------------------||------------------------------------|
||----------------------------||-----11-----11-----11-----11--------|
||o-2\---2\---2\-------------o||--14-----14-----14-----14-----14----|
||o-2\---2\---2\-------------o||------------------------------------|
||--0\---0\---0\---<5>--<5>---||------------------------------------|
||--0\---0\---0\--------------||------------------------------------|
\ = dive w/whammy bar
<#> = harmonic + octave up w/Whammy pedal



Prechorus

||----------------------------------||
||----------------------------------||
||o-2--x-x--x--x-x-----------------o||
||o-2--x-x--x--x-x-------<5>--<12>-o||
||--0--x-x--x--x-x-<3>-0------------||
||----------------------------------||

Play the last bar of the verse again.

Chorus
x3 let ring----------------------
||----------------------------||------------------------------------|
||----------------------------||-----11-----11-----11-----11--------|
||o-2\---2\---2\--<9---------o||--14-----14-----14-----14-----14----|>

Lirik dan Kunci Gitar Matera - Aku Masih Mencintaimu

Lirik, Kunci gitar, Chords Gitar, Kord Gitar Matera - Aku Masih Mencintaimu :

Intro: A D 2x

A D
Seringkali ku menyesali
A D
Apa yang kini tlah terjadi
Bm C#m D E
Kau pergi tinggalkan diriku
Bm C#m D E
Tanpaku mencegah dirimu

A D
Ku tahu itu salahku
A D
Sehingga kau pergi dariku
Bm C#m D E
Kasih maafkan diriku
Bm C#m D E
Yang selalu membuat kecewa dirimu

A E/G# F#m
Aku masih mencintaimu
E D C#m Bm
Sampai kapanpun kau selalu ada di hatiku
E A E/G# F#m
Aku masih mengharapkanmu
E D C#m Bm E
Ijinkan aku untuk kembali mendampingimu kasihku

Int: A D 2x

A D
Seringkali ku menyesali
A D
Apa yang kini tlah terjadi
Bm C#m D E
Kau pergi tinggalkan diriku
Bm C#m D E
Tanpaku mencegah dirimu

A D
Ku tahu itu salahku
A D
Sehingga kau pergi dariku
Bm C#m D E
Kasih maafkan diriku
Bm C#m D E
Yang selalu membuat kecewa dirimu

A E/G# F#m
Aku masih mencintaimu
E D C#m Bm
Sampai kapanpun kau selalu ada di hatiku
E A E/G# F#m
Aku masih mengharapkanmu
E D C#m Bm E
Ijinkan aku untuk kembali mendampingimu kasihku

Nnt: A D 2x

Solo: Bm C#m D E 2x

A E/G# F#m
Aku masih mencintaimu
E D C#m Bm
Sampai kapanpun kau selalu ada di hatiku
E A E/G# F#m
Aku masih mengharapkanmu
E D C#m Bm E A
Ijinkan aku untuk kembali mendampingimu kasihku

E A E/G# F#m
Aku masih mencintaimu
E D C#m Bm
Sampai kapanpun kau selalu ada di hatiku
E A E/G# F#m
Aku masih mengharapkanmu
E D C#m Bm E A
Ijinkan aku untuk kembali mendampingimu kasihku
Bm E
Ku masih mencintaimu

Ending: A D 2x A

Wednesday, September 6, 2017

Lyric and Chord Guitar Linkin Park - The Catalyst

Lyric, Chords Guitar, Kunci gitar, Kord Gitar Linkin Park - The Catalyst :

Intro: D5 Dsus4 Dm Dsus4

Dm
God bless us everyone |
We're a broken people living under loaded gun |
And it can't be outfought, It can't be outdone | x2
It can't out matched, It can't be outrun, (No) |

C
No-oh, and when I close my eyes tonight
Dm
To symphonies of blinding light

God bless us everyone

We're a broken people living under loaded gun
C
Ho-oh, like memories in cold decay
Am
Transmissions echoing away

Far from the world of you and I
Dm
Where oceans bleed into the sky

Dm
God save us everyone |
Will we burn inside the fires of a thousand suns? |
For the sins of our hand, the sins of our tongue | x2
The sins of our father, the sins of our young, (No) |

C
No-oh, and when I close my eyes tonight
Dm
To symphonies of blinding light

God save us everyone

Will we burn inside the fires of a thousand suns
C
Ho oh, like memories in cold decay
Am
Transmissions echoing away

Far from the world of you and I
Dm
Where oceans bleed into the sky

C Bb Am

Bb C
Oh-oh, like memories in cold decay
Am
Transmissions echoing away

Far from the world of you and I
Dm Am C G
Where oceans bleed into the sky

Dm Am C G

Dm Am C G
Lift me up, let me go
Dm Am C G
Lift me up, let me go
Dm Am C G
Lift me up, let me go
Dm Am C G
Lift me up, let me go

Dm Am
God bless us everyone
C G
We're a broken people living under loaded gun
Dm Am
And it can't be outfought, it can't be outdone
C G
It can't out matched, it can't be outrun, now


Lirik dan Kunci Gitar Gita Gutawa - Lelaki Sempurna

Lirik, Kunci gitar, Chords Gitar, Kord Gitar Gita Gutawa - Lelaki Sempurna :

Intro: Cm A# G# G 2x

Cm A#
Lelaki sempurna yang kuimpikan
G# G
Adalah seseorang yang menenangkan jiwa
Cm A#
Lelaki sempurna seperti dia
G# G
Punya segala sifat indah tanpa cela

Int: Cm A# G# G

Cm A#
Lelaki sempurna berkiblat surga
G# G
Menyejukkan hati dengan akhlak mulia
Cm A#
Lelaki sempurna seperti dia
G# G
Menjadi penuntun dunia dan akhirat

G# G D# Fm A#m C
Lelaki impianku

Fm C
Al Amin jujur amanah dipercaya
D# A#
Fathonah cerdas serta tepati janji
A#m Fm
Tawadhu rendah hati Amiru berbuat baik
G C
Shiddiq benar zuhud bukan duniawi

Fm C
amal dermawan tawakal sabar hati
D# A#
Istiqomah berada di jalan lurus
A#m Fm
Itulah sifat rasul Sifat sifat sempurna
G C
Sifat lelaki dambaan kita semua

Int: Cm A# G# G 2x

Cm A#
Lelaki sempurna berkiblat surga
G# G
Menyejukkan hati dengan akhlak mulia
Cm A#
Lelaki sempurna seperti dia
G# G
Menjadi penuntun dunia dan akhirat

G# G D# Fm A#m C
Lelaki impianku

Fm C
Al Amin jujur amanah dipercaya
D# A#
Fathonah cerdas serta tepati janji
A#m Fm
Tawadhu rendah hati Amiru berbuat baik
G C
Shiddiq benar zuhud bukan duniawi

Fm C
amal dermawan tawakal sabar hati
D# A#
Istiqomah berada di jalan lurus
A#m Fm
Itulah sifat rasul Sifat sifat sempurna
G C
Sifat lelaki dambaan kita semua

Int: Fm C D# A# A#m Fm G C

Fm C
Al Amin jujur amanah dipercaya
D# A#
Fathonah cerdas serta tepati janji
A#m Fm
Tawadhu rendah hati Amiru berbuat baik
G C
Shiddiq benar zuhud bukan duniawi

Fm C
amal dermawan tawakal sabar hati
D# A#
Istiqomah berada di jalan lurus
A#m Fm
Itulah sifat rasul Sifat sifat sempurna
G C
Sifat lelaki dambaan kita semua

Int: Cm A# G# G 2x

Cm A#
Lelaki sempurna
G# G
seperti dia
Cm A#
Lelaki impian
G# G

Tuesday, September 5, 2017

Lirik dan Kunci Gitar Nidji - Tuhan Maha Cinta

Lirik, Kunci gitar, Chords Gitar, Kord Gitar Nidji - Tuhan Maha Cinta:

Intro: A Bm F#m E

A Bm
Tahukah Tuhanmu
F#m E
selalu hidup di dalam hatimu
A Bm
Cinta dari-Nya
F#m E
menjawab semua masalahmu

A Bm
Dia mendengar
F#m E
melihat dan selalu berfirman
A E/G#
Perangi neraka di dalam hatimu
F#m E
Damaikan jiwamu dengan cinta Dia
A E/G#
Memberi yang ikhlas kepada yang butuh
F#m E
Bersyukurlah terus tanpa kenal waktu

A E/G#
Serahkan, ikhlaskan
F#m Bm
pasrahkanlah hanya kepada-Nya
A E/G#
Cinta-Nya adalah
F#m Bm A
jawaban-Nya karena Tuhanlah Maha Cinta
E/G# F#m E
Karena Tuhanlah Maha Cinta

A Bm
Tahukah Tuhanmu
F#m E
selalu hidup di dalam hatimu
A Bm
Cinta dari-Nya
F#m E
menjawab semua masalahmu

A Bm
Dia mendengar
F#m E
melihat dan selalu berfirman
A E/G#
Perangi neraka di dalam hatimu
F#m E
Damaikan jiwamu dengan cinta Dia
A E/G#
Memberi yang ikhlas kepada yang butuh
F#m E
Bersyukurlah terus tanpa kenal waktu

A E/G#
Serahkan, ikhlaskan
F#m Bm
pasrahkanlah hanya kepada-Nya
A E/G#
Cinta-Nya adalah
F#m Bm A
jawaban-Nya karena Tuhanlah Maha Cinta hooo

Int: A E/G# F#m Bm
A E/G# F#m Bm

A E/G# F#m E
Tuhan kau Maha Pengasih
A E/G# F#m E
Tuhan kau Maha Penyayang

A E/G#
Serahkan, ikhlaskan
F#m Bm
pasrahkanlah hanya kepada-Nya
A E/G#
Cinta-Nya adalah
F#m Bm
jawaban-Nya karena Tuhan Kau lah sang Pencerah

A E/G# F#m E A
Tuhan Kau lah sang Pencerah

Lyric and Chord Guitar Bullet for My Valentine - Bittersweet Memories [Acoustic]

Lyric, Chords Guitar, Kunci gitar, Kord Gitar Bullet for My Valentine - Bittersweet Memories [Acoustic] :

Am                      C
You turn me off at the push of a button
Am C
And you pretend that I dont mean nothing
G D
im not a saint thats easy to tell
F G(Bar)
But guess what honey it aint no angel

Am C
You like to scream these words as a weapon
Am C
Well go head take your best shot woman
G D
I wanna leave you its easy to see
F G(Bar)
But guess what honey its not that easy

F G(Bar)
We get so complicated (COMPLICATED)

F G(Bar)
These fingers full of memories

Am C
So rip my pictures from your wall
Am C
Tear them down and burn them all
G D
Light the fire and walk away

G A(Bar)
Theres nothing left to say so

Am C
Take the ashes from the floor
Am C
Bury them to just make sure
G D
That nothing more is left of me
F G(Bar) Am
Just bittersweet memories
(Memories)


Am C
I wanna run and escape from your prison
Am C
But when I leave I feel something is missing
G D
im not afraid thats easy to tell
F G(bar)
This cant be heaven it feels like im in hell


Am C
Your like a drug that I cant stop taking
Am C
I want more and I cant stop craving
G D
I still want you its easy to see
F G(Bar)
But guess what honey your not that good for me

F G(Bar)
We get so complicated (COMPLICATED)

F G(Bar)
These fingers full of memories

Am C
So rip my pictures from your wall
Am C
Tear them down and burn them all
G D
Light the fire and walk away

G A(Bar)
Theres nothing left to say so

Am C
Take the ashes from the floor
Am C
Bury them to just make sure
G D
That nothing more is left of me
F G(Bar) Am
Just bittersweet memories
F G(Bar)
Just bittersweet memories

F G(Bar) Am
We get so complicated (COMPLICATED)
F G(Bar)
These fingers full of memories

F G(Bar) Am
We get so complicated (COMPLICATED)

Friday, September 1, 2017

Lyric and Chord Guitar Doughtry - September

Lyric, Kunci gitar, Chords Guitar, Kord Gitar Doughtry - September

Verse 1:
Em Dsus4
How the time passed away
Cadd9
All the trouble that we gave
Em Dsus4 Cadd9
And all those days we spent out by the lake
Em Dsus4
Has it all gone to waste
Cadd9
All the promises we made
Em Dsus4 Cadd9
One by one they vanish just the same


Chorus:
G Dsus4
Of all the things I still remember
Em
Summer's never looked the same
Cadd9
The years go by and time just seems to fly
G
But the memories remain
Dsus4
In the middle of the September
Em
We'd still play out in the rain
Cadd9
Nothing to lose but everything to gain
Dsus4 Cadd9
Reflecting now on how things could've been
Em Dsus4 Cadd9
It was worth it in the end


Verse 2:
Em Dsus4
Now it all seems so clear
Cadd9
There's nothing left to fear
Em Dsus4 Cadd9
So we made our way by finding what was real
Em Dsus4
Now the days are so long
Cadd9
That summer's moving on
Em Dsus4 Cadd9
We reach for something that's already gone


Chorus:
G Dsus4
Of all the things I still remember
Em
Summer's never looked the same
Cadd9
The years go by and time just seems to fly
G
But the memories remain
Dsus4
In the middle of the September
Em
We'd still play out in the rain
Cadd9
Nothing to lose but everything to gain
Dsus4 Cadd9
Reflecting now on how things could've been
G Dsus4 Em Cadd9 (strum down fast)
It was worth it in the end


Bridge:
G Dsus4
We knew we had to leave this town
Em
But we never knew when and we never knew how
Cadd9
We would end up here the way we are
G Dsus4
Yeah we knew we had to leave this town
Em Cadd9
But we never knew when and we never knew how

Lyric, Chord Guitar and Video Eminem Feat. Rihanna – Love The Way You Lie

Lyric, Chord Guitar, Kunci gitar, Kord Gitar

         Em                            C
Just gonna stand there and watch me burn.

G D
But that's alright, because I like the way it hurts.

Em C
Just gonna stand there and hear me cry.

G D
But that's alright, because I love the way you lie.

Em
I love the way you lie.



Lyric and Bass Tab The Brand New Heavies - You Are The Universe [OST Take Celebrity Out Indonesia]

Lyric, Kunci gitar, Chords Guitar, Kord Gitar, Bass Tab The Brand New Heavies - You Are The Universe [OST Take Celebrity Out Indonesia]:

Intro (not accurate)

G:|----------------15-------||
D:|-4/10-82---------15-----||
A:|----------11/13-----135-||
E:|-------------------------||

Intro/chorus

G:|-----------------|-----------------|-----------------|
D:|-----------------|-----------------|-----------------|
A:|-----------3-4---|-5---------------|-----------3-4---|
E:|-6-6-5-----------|-------1--0h1-1--|-6-6-5-----------|
B:|-----------------|---3-------------|-----------------|

G:|-----------------||
D:|---3-3h5-3-------||
A:|-5-----------3---||
E:|-----------------||
B:|-----------------||

Verse

G:|-----------------|-----------------|-----------------|
D:|-----------------|-----------------|-----------------|
A:|-----------------|-----------------|-------------3-4-|
E:|-6-----5h6-----5-|-6----x6x6-6/8-6-|-5----x5---------|
B:|-----------------|-----------------|-----------------|

G:|-----------------|-----------------|-----------------|
D:|-----------------|-----------------|-8-88------------|
A:|-5--5--x-5-5--3--|---------------8-|------8-8--------|
E:|-----------------|-6-----5h6-------|----------6-6/8-6|
B:|-----------------|-----------------|-----------------|

G:|-----------------|-----------------||
D:|-----------------|-----------------||
A:|-------------3-4-|-5--5---x-5------||
E:|-5-----x-5-------|------------5----||
B:|-----------------|--------------3--||

Bridge

G:|-----------------|-----------------|-----------------|
D:|-----------------|-----------------|-----------------|
A:|-----------------|-----------------|-----------------|
E:|-3-3-5-----------|-----------------|-3-3-5--5/125---|
B:|-----------------|---------3-------|-----------------|

G:|-----------------||
D:|-----------------||
A:|---3---4---5--3--||
E:|-6---6---6-------||
B:|-----------------||

Chorus

G:|-----------------|-----------------|-----------------|
D:|-----------------|-----------------|-----------------|
A:|------------3-4--|-5---------------|------------3-4--|
E:|-6---6---5-------|---5----1--0h1-1-|-6---6---5-------|
B:|---6-------------|-----3-----------|---6-------------|

G:|-----------------||
D:|---3-3h5--3------||
A:|-5-----------3---||
E:|-----------------||
B:|-----------------||

M8

G:|-----------------|-----------------|-----------------|
D:|-----------------|----------------3|----------101111/|
A:|-------------3-4-|-5---------------|-----------------|
E:|-66-x6--5-x5-----|---5-----1-x1-1--|66-x6-5-x5-------|
B:|-----------------|-----3-3---------|-----------------|

G:|----1010-12/14-10|--10---10--------|-----------------|
D:|1212-------------|0----0----0--10/-|12--12--11----12-|
A:|-----------------|-----------------|-----------------|
E:|-----------------|-----------------|-----------------|
B:|-----------------|-----------------|-----------------|

G:|9-10-9-----------|-----------------|-----------------||
D:|------12---------|-5--7--8---------|-----------------||
A:|---------10/12-10|---------8-------|--3-4-5----------||
E:|-----------------|-----------6-6-5-|5------5---1-----||
B:|-----------------|-----------------|--------33--5/12||

Lirik dan Kunci Gitar Saba - Kembali Untukmu

Lirik, Kunci gitar, Chords Gitar, Kord Gitar Saba - Kembali Untukmu :


G D/F# Em D C D
Kekasihku kusadari betapa indah ku berada di sisimu
G D/F# Em B
Saat cinta harus pergi mematahkan sumpah janjiku
C D
Merenggut cintaku
Am Bm C Bm
Semua indah tentangmu menyisakan kegetiran
Am Bm A# D
Di detak nafasku, memasung di jiwa

Reff:
G D/F# Em D C Bm
Kepergianku bukan berarti tuk mengingkari cinta
Am Bm A# D
Mestinya kau tahu pilihan jalanku
G D/F# Em D C
Meninggalkanmu sungguh terasa berat di umur hidupku
Am D G
Pasti ku kan kembali untukmu

C Bm Am
Bila saja ku mampu memutar jalan kembali
C Bm D E
Sepenuhnya akukan ada bersama


A E/G# Em E D C#m
Kepergianku bukan berarti tuk mengingkari cinta
Bm C#m C E
Mestinya kau tahu pilihan jalanku
A E/G# Em E D
Meninggalkanmu sungguh terasa berat di umur hidupku
Bm E A
Pasti ku kan kembali untukmu

Lirik dan Kunci Gitar Marsya Manopo - Kasihku Pergilah

Lirik, Kunci gitar, Chords Gitar, Kord Gitar Marsya Manopo - Kasihku Pergilah ;

Bm                 Gm
Aku tahu semua kekuranganku
Cm F
Dan kusadari keterbatasanku
Bm Gm Cm F
Namun ku coba berikan yang terbaik untukmu
Cm Gm
Tapi kau tak pernah merasa
Cm F
Akan semua cinta yang tlah kuberi

Reff:
Bb Cm
Mengapa kau mendua khianati cintaku
D# Cm F
Apakah salahku hingga kau begitu
Bb
Sungguh aku tak bisa
G Gm
Menahan semua rasa di dada
Cm F Bb
Kasihku pergilah tinggalkan diriku

Cm Dm
Andai saja engkau bisa
D# Gm
Membalas cintaku ini
Cm Dm
Mungkin saja semua pertanda
D# F
Kau tak cukup baik untukku

F Em
Mengapa kau mendua khianati cintaku
F Em G
Apakah salahku hingga kau begitu
C
Sungguh aku tak bisa
Bb Am
Menahan semua rasa di dada
Dm G C
Kasihku pergilah tinggalkan diriku

F Em G
Apakah salahku hingga kau begitu
C
Sungguh aku tak bisa
Bb Am
Menahan semua rasa di dada
Dm G C
Kasihku pergilah tinggalkan diriku

Lirik dan Kunci Gitar Gigi - Amnesia

Lirik, Kunci gitar, Chords Gitar, Kord Gitar Gigi - Amnesia ;

intro: Bm G Em G
Bm G Em G

Bm D
Berbuat baik jika kau dilihat orang
A Em
Berkata halus jika kau didengar orang
Bm D
Menghujat orang pun tak pernah ditinggalkan
A Em
Dzolimi orang pun selalu dilakukan

G
Kadang kau beramal
A
Kadang kau memfitnah
D A
Padahal Tuhan selalu melihat

Bm G
Pagi beriman, siang lupa lagi
Em G
Sore beriman, malam amnesia
Bm G
Pagi beriman, siang lupa lagi
Em G
Sore beriman, malam amnesia

Bm D
Berbuat baik jika kau dilihat orang
A Em
Berkata halus jika kau didengar orang
Bm D
Menghujat orang pun tak pernah ditinggalkan
A Em
Dzolimi orang pun selalu dilakukan

G
Kadang kau beramal
A
Kadang kau memfitnah
D A
Padahal Tuhan selalu melihat

Bm G
Pagi beriman, siang lupa lagi
Em G
Sore beriman, malam amnesia
Bm G
Pagi beriman, siang lupa lagi
Em G
Sore beriman, malam amnesia

Int: Bm Em G F#
Bm Em G A

Bm
Pagi beriman...

Bm G
Pagi beriman, siang lupa lagi
Em G
Sore beriman, malam amnesia
Bm G
Pagi beriman, siang lupa lagi
Em G
Sore beriman, malam amnesia
Bm G
Pagi beriman, siang lupa lagi
Em G
Sore beriman, malam amnesia
Bm G
Pagi beriman, siang lupa lagi
Em G
Sore beriman, malam amnesia

Outro: Bm G Em G

Lirik dan Kunci Gitar Firman - Separuh hati

Lirik, Kunci gitar, Chords Gitar, Kord Gitar Firman - Separuh Hati ;

Intro: G Em Am D

G Em Am D
maafkanlah bila cinta ini tak bisa
Bm Em
untukmu
Am D Bm Em
meski raga ini selalu bersamamu
Bm Em
temani malammu
Am D
bagai tabir hitam di hidupku

Int: G Em Am D

G Em C D
separuh hati ini bermain dalam hatimu
G Em C D
meski perih tak bisa jujur padamu
Em C
Tuhan tolonglah diriku
Em C G
dari munafik hatiku ini
Am D
maafkanlah aku

Int G Em Am D

G Em Am D
bukan maksudku mengkhianati dirimu
Bm Em C D
meski hatiku yang tak pernah memilikmu
Bm Em Bm Em
biar sudah kenyataan ini
Am D
mengalir seperti apa adanya

Int: G Em Am D

G Em C D
separuh hati ini bermain dalam hatimu
G Em C D
meski perih tak bisa jujur padamu
Em C
Tuhan tolonglah diriku
Em C G
dari munafik hatiku ini
Am D
maafkanlah aku

Solo: G Em Am D 2x

G Em C D
separuh hati ini bermain dalam hatimu
G Em C D
meski perih tak bisa jujur padamu
Em C
Tuhan tolonglah diriku
Em C G
dari munafik hatiku ini
Am D
maafkanlah aku

Int: G Em Am D

G Em Am D G
maafkanlah sayang